999
DXF code for: Handle = 5; Layer Name = 8; Comment = 999.
999
Handle is a string representing a hex value, always starting at hex 20 or so. Zero is a special number: don't use it.
999
Including only the section with the drawing objects: ENTITIES
999
Using the LWPOLYLINE (optimized, 2D only: added on app. ver 14) drawing object.
999
DXF version 14.
999
Testing QGIS 1.7.1; CRS: EPSG:3410 - NSIDC EASE-Grid Global
999
--------------------------------------------------------------
  0
SECTION
  2
HEADER
  9
$ACADVER
  1
AC1014
  0
ENDSEC
  0
SECTION
  2
ENTITIES
  0
LWPOLYLINE
  5
30
100
AcDbEntity
  8
NADA1
100
AcDbPolyline
 90
       65
 70
     1
 43
0.0
 10
1902077.297795499
 20
-5091253.099665872
 10
1219341.58378386
 20
-3933570.801993969
 10
921941.197495118
 20
-1970728.25248825
 10
743500.9657218721
 20
-870346.823219895
 10
-29740.038628865
 20
-7885.70298253559
 10
-713760.9270929809
 20
170554.5287907119
 10
-1368041.77692822
 20
378734.799192835
 10
-1754662.27910359
 20
943795.533141451
 10
-1843882.39499021
 20
1776516.61474994
 10
-1843882.39499021
 20
2460537.50321405
 10
-1576222.04733034
 20
3322998.623451409
 10
-1249081.62241272
 20
3947539.43465778
 10
-981421.2747528522
 20
4780260.516266269
 10
-1040901.352010599
 20
5285841.172957129
 10
-1130121.46789723
 20
5791421.829648
 10
-1308561.69967047
 20
6207782.37045224
 10
-1308561.69967047
 20
6178042.33182337
 10
-1487001.93144372
 20
6297002.486338869
 10
-1933102.51087684
 20
6297002.486338869
 10
-2855043.708371949
 20
6237522.409081121
 10
-3598544.67409381
 20
5672461.6751325
 10
-3776984.90586706
 20
4661300.36175077
 10
-3509324.55820719
 20
3501438.85522466
 10
-3182184.13328957
 20
1776516.61474994
 10
-3003743.90151632
 20
170554.5287907119
 10
-3063223.97877407
 20
-721646.6300755242
 10
-3241664.21054732
 20
-1970728.25248825
 10
-3568804.63546494
 20
-3160329.79764324
 10
-3360624.36506281
 20
-4112011.033767219
 10
-2408943.12893883
 20
-5182652.4244067
 10
-981421.2747528522
 20
-5658493.042468701
 10
1368041.77692823
 20
-5628753.003839819
 10
1903362.47224798
 20
-5093432.308520079
 10
1928460.484385163
 20
-5096618.567630357
 10
1376430.633996704
 20
-5648648.418018805
 10
-984543.4573314012
 20
-5678534.166010307
 10
-2420339.510470437
 20
-5199935.481630617
 10
-3379045.32543742
 20
-4121391.439792764
 10
-3589396.978027254
 20
-3159783.885096418
 10
-3261284.107252801
 20
-1966646.1731893
 10
-3083129.550190339
 20
-719564.2737520964
 10
-3023817.802780079
 20
170111.9374017926
 10
-3201976.985946608
 20
1773544.585900544
 10
-3528900.920150649
 20
3497325.329885459
 10
-3797387.799577565
 20
4660768.474068783
 10
-3616879.728535775
 20
5683647.543305578
 10
-2862346.436263314
 20
6257092.845432658
 10
-1933747.002217009
 20
6317002.48633887
 10
-1480946.418689079
 20
6317002.486338869
 10
-1274676.78917155
 20
6179489.399993851
 10
-1110827.661105694
 20
5797174.767840176
 10
-1021105.616360474
 20
5288749.847617299
 10
-961050.2747914146
 20
4778279.444280285
 10
-1230567.193320883
 20
3939782.364410817
 10
-1557660.488980367
 20
3315331.527242704
 10
-1823882.39499021
 20
2457505.38565543
 10
-1823882.39499021
 20
1777584.985954323
 10
-1735312.563321882
 20
950933.223716559
 10
-1355420.998385973
 20
395707.0903486931
 10
-708200.7869191243
 20
189773.3867001488
 10
-18866.97438296774
 20
9947.174734195035
 10
762304.8861583632
 20
-861359.900484981
 10
941699.9406942398
 20
-1967629.403456223
 10
1238535.841155752
 20
-3926746.346502234
 10
1927175.309932681
 20
-5094439.35877615
  0
LWPOLYLINE
  5
31
100
AcDbEntity
  8
NADA1
100
AcDbPolyline
 90
       31
 70
     1
 43
0.0
 10
-1864389.087714938
 20
-5059578.00288345
 10
-1872793.238070977
 20
-4018279.54641533
 10
-1797156.279284821
 20
-3951099.020396324
 10
-1662690.549733682
 20
-3967894.151901075
 10
-1503012.538150797
 20
-4144243.070597657
 10
-1376950.902610237
 20
-4345784.724448057
 10
-1267697.511436296
 20
-4454953.091861173
 10
-1082807.161476206
 20
-4362579.855952809
 10
-1023978.447056675
 20
-4219821.200265729
 10
-881108.6234949566
 20
-4018279.54641533
 10
-805471.6647087941
 20
-3925906.310506966
 10
-671005.9351576545
 20
-3959496.573516471
 10
-620581.3147487036
 20
-4035074.703184544
 10
-570156.6943397529
 20
-4429760.407236276
 10
-553348.449973134
 20
-4832843.664408153
 10
-528136.1115959353
 20
-5151951.264056275
 10
-595368.976371505
 20
-5227529.368459886
 10
-654197.7471364951
 20
-5168746.395561027
 10
-746642.8939438038
 20
-4555723.931418603
 10
-788663.4203421749
 20
-4186230.911991767
 10
-897916.8115161158
 20
-4219821.200265729
 10
-998766.1086794773
 20
-4488543.380135135
 10
-1183656.45863956
 20
-4589314.194428105
 10
-1334930.376211866
 20
-4564121.484538747
 10
-1511416.632161376
 20
-4429760.407236276
 10
-1645882.305367063
 20
-4245013.910155087
 10
-1738327.508519838
 20
-4261809.041659839
 10
-1780348.034918202
 20
-4589314.194428105
 10
-1780348.034918202
 20
-4891626.637307012
 10
-1822368.561316567
 20
-5135156.132551522
 10
-1855984.993704358
 20
-5151951.264056275
  0
LWPOLYLINE
  5
32
100
AcDbEntity
  8
NADA1
100
AcDbPolyline
 90
       14
 70
     1
 43
0.0
 10
-2742721.442035183
 20
-898704.8068734075
 10
-2714119.636406266
 20
579888.4172567354
 10
-1906763.663925306
 20
-789951.3885814027
 10
-1858801.903460189
 20
623819.146227472
 10
-1822830.62537045
 20
627812.8511579452
 10
-1782862.482258607
 20
623819.146227472
 10
-1834821.051400361
 20
-885800.2563838221
 10
-1862798.712136826
 20
-941712.074881517
 10
-1942734.942015052
 20
-909762.4607021964
 10
-2606505.760309908
 20
232412.3565552861
 10
-2630486.668715196
 20
216437.536833397
 10
-2646473.903421751
 20
172506.8331271179
 10
-2650170.641234594
 20
-973661.6890608377
 10
-2678148.30197106
 20
-1001617.598309685
  0
LWPOLYLINE
  5
33
100
AcDbEntity
  8
NADA1
100
AcDbPolyline
 90
       21
 70
     1
 43
0.0
 10
-2831707.991975137
 20
-2577684.402811891
 10
-2781283.315220727
 20
-3190706.866954314
 10
-2655221.736025627
 20
-3535007.176491793
 10
-2436714.953677752
 20
-3702958.516803769
 10
-2251824.603717661
 20
-3761741.514967089
 10
-1890448.054153513
 20
-3719753.673572982
 10
-1646728.933428433
 20
-3476224.178328473
 10
-1545879.636265079
 20
-3039550.63288263
 10
-1512263.203877294
 20
-2619672.244206001
 10
-1554283.786621118
 20
-2485311.141639069
 10
-1663537.177795059
 20
-2560889.246042681
 10
-1713961.79820401
 20
-2989165.238368376
 10
-1831619.28338853
 20
-3409043.652309466
 10
-1974489.106950249
 20
-3535007.176491793
 10
-2134167.118533141
 20
-3560199.861116689
 10
-2352673.900881016
 20
-3501416.88821783
 10
-2554372.438862272
 20
-3333465.522641394
 10
-2672029.980392246
 20
-2997562.79148852
 10
-2747666.939178401
 20
-2720443.05849897
 10
-2789687.465576766
 20
-2384540.327346096
 10
-2831707.991975137
 20
-2350950.064336595
  0
LWPOLYLINE
  5
34
100
AcDbEntity
  8
NADA1
100
AcDbPolyline
 90
       16
 70
     1
 43
0.0
 10
-1077079.389044599
 20
-1319209.043969742
 10
-1143039.071864296
 20
-1294493.402896665
 10
-2680724.466369162
 20
-1294493.402896665
 10
-2750806.664581009
 20
-1343924.68504282
 10
-2721949.282217842
 20
-1397475.236490415
 10
-2309701.180076498
 20
-1413952.338960622
 10
-2157169.40651274
 20
-1413952.338960622
 10
-2124189.565102891
 20
-1479860.723576983
 10
-2095332.182739725
 20
-2573282.949131688
 10
-2078842.290207524
 20
-2816320.115825498
 10
-2049984.907844357
 20
-2836916.462332681
 10
-2008760.091995678
 20
-2820439.385126935
 10
-1951045.383614798
 20
-2544448.038757173
 10
-1897453.134280606
 20
-1451025.787938007
 10
-1320305.768744532
 20
-1442787.249335137
 10
-1085324.363483423
 20
-1401594.505791849
  0
LWPOLYLINE
  5
35
100
AcDbEntity
  8
NADA1
100
AcDbPolyline
 90
       17
 70
     1
 43
0.0
 10
-2187030.404408471
 20
1328025.833335436
 10
-2456701.480048532
 20
1333678.871271813
 10
-2456452.445636816
 20
1409570.664408686
 10
-2224541.585695713
 20
1404709.183117105
 10
-2456314.483138296
 20
1878517.833087436
 10
-2653124.076180925
 20
1413693.435773157
 10
-2459519.264209897
 20
1409634.953252777
 10
-2459768.298621612
 20
1333743.160115904
 10
-2684976.637050425
 20
1338464.138358397
 10
-2851998.823852768
 20
943991.5614972871
 10
-2923941.436377713
 20
932010.4467058676
 10
-2879976.484589234
 20
1035846.699104772
 10
-2468304.909168207
 20
2110152.567468085
 10
-1932732.15208048
 20
1047827.813896191
 10
-1956713.004140309
 20
995909.6750645089
 10
-2020661.99931198
 20
987922.2652035627
 10
-2187030.404408471
 20
1328025.833335437
  0
LWPOLYLINE
  5
36
100
AcDbEntity
  8
NADA1
100
AcDbPolyline
 90
       18
999
First U in QUANTUM GIS
999
70 Polyline flag (bit-coded); default is 0 (open): 1 = closed; 128 = plinege
999
If set to open -- as shown below-- QGIS displays an invisible object on the canvas: it can be selected, but is no highlighted.
 70
     0
 43
0.0
 10
-3011482.925674243
 20
3635466.629386538
 10
-3026800.438273903
 20
3099770.873519585
 10
-2919577.850076298
 20
2426324.76238366
 10
-2781720.236679381
 20
2334491.20062583
 10
-2414099.990633061
 20
2334491.20062583
 10
-2107749.794985367
 20
2472241.530630344
 10
-1939257.156389137
 20
2793659.009414976
 10
-1923939.643789477
 20
3635466.629386538
 10
-1923939.643789477
 20
3834439.342317762
 10
-2031162.231987082
 20
3727300.191144369
 10
-2061797.257186395
 20
3359965.94411305
 10
-2107749.794985367
 20
3007937.311761758
 10
-2230289.839437171
 20
2579380.681803733
 10
-2424374.083945109
 20
2500099.104982817
 10
-2760375.19381464
 20
2496081.421271731
 10
-2846394.178766833
 20
2689921.097526768
 10
-2904260.337476646
 20
3206910.024692978
 10
-2950212.875275618
 20
3773216.959391049
  0
LWPOLYLINE
  5
37
100
AcDbEntity
  8
NADA1
100
AcDbPolyline
 90
       36
 70
     1
 43
0.0
 10
-1665872.429640307
 20
4004017.897774569
 10
-1685780.852815325
 20
4039009.505268384
 10
-1677703.630067357
 20
4063931.439548557
 10
-1702902.294843622
 20
4143403.664315976
 10
-1849299.04510791
 20
4364901.690472036
 10
-1807930.476162941
 20
4425514.453138334
 10
-1793299.951860181
 20
4476286.785998688
 10
-1787599.261536212
 20
5126437.249979241
 10
-2081249.805211237
 20
5592153.942125918
 10
-2520911.175503599
 20
5858444.296491281
 10
-2790422.989685984
 20
5769850.983855105
 10
-3100069.199346751
 20
5156945.757292984
 10
-3063812.956405373
 20
4435028.259880341
 10
-2654591.806182569
 20
4068862.706767181
 10
-2115562.10245764
 20
4139422.63859581
 10
-1974394.21030692
 20
4286986.978813393
 10
-1974394.210307982
 20
4286986.978812284
 10
-1926661.70861705
 20
4216538.717964627
 10
-1766262.019819781
 20
4056477.191887822
 10
-1686012.9327796
 20
4038293.432207397
 10
-1666104.509604582
 20
4003301.824713582
 10
-1781191.891370157
 20
4029379.64527778
 10
-1912707.279385539
 20
4134183.769201752
 10
-1953979.620801774
 20
4203860.829403025
 10
-2080965.557869613
 20
4071121.041800892
 10
-2678061.47283118
 20
3992960.141272225
 10
-3134424.725115585
 20
4401307.810013827
 10
-3173152.245722012
 20
5172432.242360331
 10
-2841390.20864813
 20
5829112.931977833
 10
-2511909.299750994
 20
5937419.149492373
 10
-2029257.127518431
 20
5645090.492340719
 10
-1715201.806772143
 20
5147012.731957318
 10
-1721339.331986615
 20
4447042.265379873
 10
-1805411.928976098
 20
4359160.261079019
 10
-1675746.131486996
 20
4156111.419919932
 10
-1646486.622867255
 20
4063831.996932306
  0
LWPOLYLINE
  5
38
100
AcDbEntity
  8
NADA1
100
AcDbPolyline
 90
       12
 70
     1
 43
0.0
 10
-1974442.044260103
 20
4287082.652743555
 10
-1995124.256699732
 20
4265465.605365077
 10
-2086790.050170455
 20
4399875.357031092
 10
-2170050.459727828
 20
4566412.87943082
 10
-2157956.206691542
 20
4619787.58200345
 10
-2103089.080427201
 20
4601448.296426112
 10
-1826309.037966549
 20
4398615.418954153
 10
-1849299.483350353
 20
4364902.139618009
 10
-2116269.342268861
 20
4574510.226917645
 10
-2136223.82867995
 20
4581179.995315555
 10
-2138710.85743833
 20
4570204.169039235
 10
-2061078.863687929
 20
4414924.607397954
  0
LWPOLYLINE
  5
39
100
AcDbEntity
  8
NADA1
100
AcDbPolyline
 90
       28
 70
     1
 43
0.0
 10
-235817.2049136814
 20
-3266909.082789638
 10
-355847.8785039413
 20
-3432524.673216963
 10
-345250.3139303317
 20
-3622145.104198283
 10
-262473.697201716
 20
-3803866.334543992
 10
-118796.8604959675
 20
-3854626.528056395
 10
33718.00241979677
 20
-3807584.117794718
 10
117318.3849126807
 20
-3679197.409812173
 10
175909.8504551801
 20
-3467551.98157327
 10
212889.2963746707
 20
-3223584.468743594
 10
324763.339670303
 20
-3089212.888840004
 10
470616.6226552465
 20
-3080477.422125249
 10
597980.1549626117
 20
-3193725.732039333
 10
714603.7644740094
 20
-3360903.010976211
 10
749803.4435849785
 20
-3596971.365131571
 10
727916.8072065551
 20
-3668018.561021044
 10
649350.7190006885
 20
-3610855.382762031
 10
556108.7233560652
 20
-3379693.798997564
 10
443970.2474963023
 20
-3233705.236740929
 10
388918.0813126642
 20
-3252737.805287086
 10
323532.7889328146
 20
-3362510.112475247
 10
221442.5945134354
 20
-3612880.610051535
 10
39016.72345767635
 20
-3902394.346250282
 10
-137693.4019600334
 20
-3939799.562529127
 10
-372171.2387825045
 20
-3878742.213792413
 10
-471393.4126293062
 20
-3619329.007787631
 10
-444065.6357417195
 20
-3399542.627384708
 10
-382077.2844983739
 20
-3238833.779885179
 10
-234454.3460207394
 20
-3133791.910787155
  0
LWPOLYLINE
  5
4A
100
AcDbEntity
  8
NADA1
100
AcDbPolyline
 90
        9
 70
     1
 43
0.0
 10
404920.8340264097
 20
-2559723.186181983
 10
-73828.86105953931
 20
-2705339.048602537
 10
-618370.7734362135
 20
-2923916.447058735
 10
-655482.3992000457
 20
-3027703.909788956
 10
-538584.1845597621
 20
-3091511.853319379
 10
-70574.34520758671
 20
-2999824.974419818
 10
385475.1377402295
 20
-2851634.851039612
 10
563548.1220508818
 20
-2681112.462758286
 10
509858.7535112531
 20
-2567027.872266864
  0
LWPOLYLINE
  5
4B
100
AcDbEntity
  8
NADA1
100
AcDbPolyline
 90
       32
 70
     1
 43
0.0
 10
376250.5550019266
 20
-2145167.838380236
 10
506339.7438462445
 20
-1992181.817254261
 10
568602.7060317437
 20
-1728103.661811382
 10
517771.1796866843
 20
-1487964.817842458
 10
301376.2473196373
 20
-1268112.990748796
 10
-1476.976797039736
 20
-1302702.110616984
 10
-491780.3045630519
 20
-1428625.456214809
 10
-751684.0771228071
 20
-1631228.163060312
 10
-883136.063611149
 20
-1917331.343223868
 10
-819123.6860044135
 20
-2324405.632211964
 10
-650031.1415617857
 20
-2495235.288136831
 10
-434175.2468877632
 20
-2538096.30847672
 10
-295797.1866555439
 20
-2494046.313961566
 10
-200643.2385447905
 20
-2385352.108303549
 10
-354917.5785752307
 20
-2144971.470844921
 10
-441630.179946635
 20
-1735322.865970971
 10
-498451.9958097039
 20
-1850661.864363502
 10
-386455.8839855658
 20
-2240199.79916115
 10
-339834.8861632543
 20
-2355780.591043381
 10
-471144.5144292371
 20
-2398334.371202829
 10
-687407.2611386743
 20
-2318662.621671728
 10
-790707.7166016968
 20
-2074871.428177911
 10
-734831.7292181398
 20
-1745730.880875504
 10
-585032.4115235045
 20
-1581193.337052118
 10
-304198.009442847
 20
-1477471.335510832
 10
15375.30985870945
 20
-1417204.841397075
 10
216687.6110627058
 20
-1426247.535327376
 10
376403.0916023012
 20
-1517888.988272553
 10
408887.2254921485
 20
-1636462.208866204
 10
390397.5360634886
 20
-1758445.972530145
 10
338193.0336963964
 20
-2035153.737702374
 10
297409.8558539067
 20
-2191373.968064576
  0
ENDSEC
  0
EOF
